Rozciąganie Palców

Ćwiczenie I

Każdy gitarzysta wie, że bez systematycznych ćwiczeń do niczego nie dojdzie. Na początek pokaże wam cztery, proste ćwiczenia, które idealnie rozciągają palce. Ten typ ćwiczeń zwany jest "pajączkami". Rezultat będzie widoczny już po kilku dniach, oczywiście liczy się precyzja, systematyczność i chęci. Aby było wam łatwiej, ponumerujmy palce:
- wskazujący (1)
- środkowy (2)
- serdeczny (3)
- mały (4)

Zacznijmy od pierwszego ćwiczenia. Popularny, standardowy "pajączek": Pokaże to na strunie E, czyli pierwszej od góry :). Literka P oznacza numer palca. Pod danym progiem widzimy którym palcem go przyciskamy.


E ---1--2--3--4--2--3--4--5--3--4--5--6--4--5--6--7--5--6--7--8--6--7--8--9--7--8--9--10--8--9--10--11--9--10--11--12--
P ---1--2--3--4--1--2--3--4--1--2--3--4--1--2--3--4--1--2--3--4--1--2--3--4--1--2--3---4--1--2---3----4--1---2---3----4--

... "dojechaliśmy" do końca gryfu :], wracamy zaś w taki sposób:

E ---12--11--10--9--11--10--9--8--10--9--8--7--9--8--7--6--8--7--6--5--7--6--5--4--6--5--4--3--5--4--3--2--4--3--2--1--
P ----4---3----2--1---4----3--2--1---4--3--2--1--4--3--2--1--4--3--2--1--4--3--2--1--4--3--2--1--4--3--2--1--4--3--2--1--

Ćwiczenia należy powtarzać na wszystkich strunach. Zaczynając od E A D G H E(2x) wracając do góry H G D A kończymy na strunie E. Po takim ćwiczeniu zalecana jest kilkuminutowa przerwa. Ważne jest aby ćwiczenia wykonywać w równym tempie. Uderzanie nogą czasami zawodzi, więc dla początkujących, którzy nie czują jeszcze dobrze tempa, polecam włączyć sobie metronom. Oczywiście przed wykonaniem ćwiczenia ustawić sobie odpowiednie tempo.

Szczególna uwagę proszę zwrócić na prawą rękę. W jaki sposób uderza ona struny. Piórko uderza cały czas tak samo. Góra - dół, góra - dół..... jest to bardzo ważny element we wszystkich ćwiczeniach. Gdy nauczycie się kostkować w taki sposób, bardzo wam się ułatwi gra solowa.

Ćwiczenie II

Pierwsze ćwiczenie mamy z głowy :] Przejdźmy do następnego. Drugi "pajączek" jest bardzo podobny do pierwszego. Wykonuje się go bardzo podobnie. Różni się tylko inną kolejnością "palcowania". W pierwszym ćwiczeniu, palce układały się po kolei 1 2 3 4, w tym ćwiczeniu palce układać się będą tak: 1 2 4 3 .
Tak to wygląda:

E - struna
P - palce

E ---1--2--4--3--2--3--5--4--3--4--6--5--4--5--7--6--5--6--8--7--6--7--9--8--7--8--10--9--8--9--11--10--9--10--12--11--
P ---1--2--4--3--1--2--4--3--1--2--4--3--1--2--4--3--1--2--4--3--1--2--4--3--1--2--4---3--1--2---4----3--1---2---4----3--

Pamiętajcie o prawej ręce.

Ćwiczenie III

Trzecie i przedostatnie ćwiczenie. Wszystkie te ćwiczenia mają jeden główny cel. Rozgrzać i rozciągnąć obie ręce. "Palcować" będziemy nie do 12 progu tak jak w poprzednich ćwiczeniach, lecz od struny E do e :] Spróbuje wam to pokazać na tabie i na filmiku.

E - struna
P - palce

E ----------------------------------------------------1-2-3-4-3-2-1---------------------------------------------------
H ------------------------------------------1-2-3-4-------------------4-3-2-1------------------------------------------
G --------------------------------1-2-3-4---------------------------------------4-3-2-1--------------------------------
D ----------------------1-2-3-4-----------------------------------------------------------4-3-2-1----------------------
A ------------1-2-3-4-------------------------------------------------------------------------------4-3-2-1------------
E --1-2-3-4---------------------------------------------------------------------------------------------------4-3-2-1--

W tym ćwiczeniu nie będę rozpisywał, gdzie i jakim palcem przyciskamy progi. Umawiamy się, że liczba progu = liczba palców, krótko mówiąc:
- wskazujący (1)
- środkowy (2)
- serdeczny (3)
- mały (4)

Przypominam o kostkowaniu. Równym, "góra - dół". Ćwiczenie na tabulaturze jak i na klipie video pokazane jest tylko jak się je wykonuje na pierwszych czterech progach. Oczywiście ćwiczenie wykonujemy aż do XII progu. Proste, wykonujemy to co jest na klipie tylko, że zaczynamy później od II progu, III, IV itd.

Ćwiczenie IV

A to już ostatnie ćwiczenie. Warto je ćwiczyć jeśli chcecie aby wasza gra solowa była zrywna i szybka. Jest to następny pajączek, którego gra się wzdłuż gryfu. Kostkowanie standardowe, czyli takie same jak w pozostałych ćwiczeniach. Dla początkujących gitarzystów, "powrót" z dolnych strun może sprawiać mały problem. Wygląda to mniej więcej tak:

E ----------------------------------------------------6-7-8-9-8-7-6---------------------------------------------------
H ------------------------------------------5-6-7-8-------------------8-7-6-5------------------------------------------
G --------------------------------4-5-6-7---------------------------------------7-6-5-4--------------------------------
D ----------------------3-4-5-6-----------------------------------------------------------6-5-4-3----------------------
A ------------2-3-4-5-------------------------------------------------------------------------------5-4-3-2------------
E --1-2-3-4---------------------------------------------------------------------------------------------------4-3-2-1--

Tak jak już wspomniałem, podczas tego ćwiczenia palcami wędrujemy po całym gryfie. Palców nie będę opisywał, myślę że w inny sposób, po prostu nie można tego zagrać.